0
SECTION
2
HEADER
9
$INSUNITS
70
4
9
$ACADVER
1
AC1014
9
$HANDSEED
5
FFFF
0
ENDSEC
0
SECTION
2
TABLES
0
TABLE
2
VPORT
5
8
100
AcDbSymbolTable
0
ENDTAB
0
TABLE
2
LTYPE
5
5
100
AcDbSymbolTable
0
LTYPE
5
14
100
AcDbSymbolTableRecord
100
AcDbLinetypeTableRecord
2
BYBLOCK
70
0
0
LTYPE
5
15
100
AcDbSymbolTableRecord
100
AcDbLinetypeTableRecord
2
BYLAYER
70
0
0
ENDTAB
0
TABLE
2
LAYER
5
2
100
AcDbSymbolTable
70
2
0
LAYER
5
50
100
AcDbSymbolTableRecord
100
AcDbLayerTableRecord
2
0
70
0
6
CONTINUOUS
0
ENDTAB
0
TABLE
2
STYLE
5
3
100
AcDbSymbolTable
70
1
0
STYLE
5
11
100
AcDbSymbolTableRecord
100
AcDbTextStyleTableRecord
2
STANDARD
70
0
0
ENDTAB
0
TABLE
2
VIEW
5
6
100
AcDbSymbolTable
70
0
0
ENDTAB
0
TABLE
2
UCS
5
7
100
AcDbSymbolTable
70
0
0
ENDTAB
0
TABLE
2
APPID
5
9
100
AcDbSymbolTable
70
2
0
APPID
5
12
100
AcDbSymbolTableRecord
100
AcDbRegAppTableRecord
2
ACAD
70
0
0
ENDTAB
0
TABLE
2
DIMSTYLE
5
A
100
AcDbSymbolTable
70
1
0
ENDTAB
0
TABLE
2
BLOCK_RECORD
5
1
100
AcDbSymbolTable
70
1
0
BLOCK_RECORD
5
1F
100
AcDbSymbolTableRecord
100
AcDbBlockTableRecord
2
*MODEL_SPACE
0
BLOCK_RECORD
5
1B
100
AcDbSymbolTableRecord
100
AcDbBlockTableRecord
2
*PAPER_SPACE
0
ENDTAB
0
ENDSEC
0
SECTION
2
BLOCKS
0
BLOCK
5
20
100
AcDbEntity
100
AcDbBlockBegin
2
*MODEL_SPACE
0
ENDBLK
5
21
100
AcDbEntity
100
AcDbBlockEnd
0
BLOCK
5
1C
100
AcDbEntity
100
AcDbBlockBegin
2
*PAPER_SPACE
0
ENDBLK
5
1D
100
AcDbEntity
100
AcDbBlockEnd
0
ENDSEC
0
SECTION
2
ENTITIES
0
LWPOLYLINE
5
100
100
AcDbEntity
8
0
100
AcDbPolyline
90
28
70
1
43
0.0
10
-27.374916969992942
20
22.499999999999996
10
-35.000000000000014
20
22.499999999999979
10
-35
20
9.8999999999999986
10
-32.100000000000001
20
9.9000000000000004
10
-32.103185869061655
20
-9.8499997430440072
10
-34.999999999999972
20
-9.8499997430440089
10
-35
20
-22.5
10
-27.374916969992942
20
-22.5
10
-27.374770568044067
20
-19.598275293017554
10
-7.6247711861220413
20
-19.603216353564157
10
-7.6249173387774816
20
-22.5
10
7.6249173387775322
20
-22.5
10
7.625077259841202
20
-19.599148542225883
10
27.375076329799679
20
-19.605209617974676
10
27.374916742877087
20
-22.5
10
34.999999999999993
20
-22.5
10
34.999999999999986
20
-9.8499997430440089
10
32.103185869061633
20
-9.8499997430440089
10
32.09999999999998
20
9.8999999999999986
10
34.999999999999986
20
9.8999999999999932
10
34.999999999999993
20
22.5
10
27.374916742877087
20
22.499999999999996
10
27.375076329799679
20
19.605209617974673
10
7.6250772598412029
20
19.59914854222588
10
7.6249173387775029
20
22.499999999999996
10
-7.6249173387774816
20
22.499999999999996
10
-7.6247711861220395
20
19.603216353564147
10
-27.374770568044067
20
19.59827529301754
0
LINE
5
101
100
AcDbEntity
8
0
100
AcDbLine
10
-27.374916969992942
20
22.499999999999996
30
0
11
-35.000000000000014
21
22.499999999999979
31
0
0
LINE
5
102
100
AcDbEntity
8
0
100
AcDbLine
10
34.999999999999993
20
22.5
30
0
11
27.374916742877087
21
22.499999999999996
31
0
0
LINE
5
103
100
AcDbEntity
8
0
100
AcDbLine
10
-6.6613381477509392e-15
20
22.5
30
0
11
-8.8817841970012523e-15
21
-22.5
31
0
0
LWPOLYLINE
5
104
100
AcDbEntity
8
0
100
AcDbPolyline
90
20
70
1
43
0.0
10
38.644437915639777
20
-56.282907583720672
10
38.644527646652961
20
-59.532907582481968
10
26.275378166518571
20
-59.532907582481982
10
26.275378166518575
20
-71.913758963228716
10
23.030750201699995
20
-71.913848545922491
10
23.025378167757275
20
-92.163847833360762
10
26.275378166518575
20
-92.163758102347586
10
26.27537816651849
20
-104.53290758248195
10
38.656229547265312
20
-104.53290758248195
10
38.65631912995908
20
-107.77753554730053
10
58.906318417397365
20
-107.78290758124326
10
58.906228686384175
20
-104.53290758248195
10
71.275378166518493
20
-104.53290758248195
10
71.27537816651855
20
-92.152056201735206
10
74.520006131337155
20
-92.15196661904146
10
74.525378165279875
20
-71.90196733160316
10
71.275378166518564
20
-71.90205706261635
10
71.275378166518564
20
-59.532907582481975
10
58.894526785771816
20
-59.532907582481975
10
58.894437203078056
20
-56.288279617663392
0
LWPOLYLINE
5
105
100
AcDbEntity
8
0
100
AcDbPolyline
90
22
70
1
43
0.0
10
-131.66219681452739
20
-112.23493010727083
10
-131.66219681452736
20
-108.98493010727088
10
-116.90755469191464
20
-108.98493010727074
10
-116.90755469191465
20
-112.23493010727071
10
-96.657554691914655
20
-112.23493010727071
10
-96.65755469191464
20
-108.98493010727071
10
-89.28750469692568
20
-108.98493010727066
10
-89.28750469692568
20
-83.98493010727077
10
-119.28750469692568
20
-83.984930107270785
10
-119.28750469692568
20
-63.98493010727077
10
-129.44051875640102
20
-63.98493010727077
10
-129.44051875640102
20
-66.734930107270785
10
-149.19051875640102
20
-66.73493010727077
10
-149.19051875640102
20
-63.98493010727077
10
-159.28750469692568
20
-63.984930107270728
10
-159.28750469692568
20
-76.61912078654511
10
-156.53750469692568
20
-76.619120786545125
10
-156.53750469692568
20
-96.369120786545096
10
-159.28750469692571
20
-96.36912078654511
10
-159.28750469692568
20
-108.98493010727073
10
-151.91219681452739
20
-108.98493010727087
10
-151.91219681452739
20
-112.23493010727083
0
LINE
5
106
100
AcDbEntity
8
0
100
AcDbLine
10
111.97322587714586
20
-98.677341637853431
30
0
11
111.97322587714586
21
-143.67734163785343
31
0
0
LINE
5
107
100
AcDbEntity
8
0
100
AcDbLine
10
121.83430858649871
20
-95.427341734945372
30
0
11
142.08430580859101
21
-95.437948584372947
31
0
0
LINE
5
108
100
AcDbEntity
8
0
100
AcDbLine
10
142.08430580859101
20
-95.437948584372947
30
0
11
142.08351398500963
21
-98.677341637853445
31
0
0
LINE
5
109
100
AcDbEntity
8
0
100
AcDbLine
10
121.83351417022374
20
-98.677341637853502
30
0
11
121.83430858649871
21
-95.427341734945372
31
0
0
LINE
5
110
100
AcDbEntity
8
0
100
AcDbLine
10
149.22322587714584
20
-111.28793987254916
30
0
11
151.97322587714584
21
-111.28793987254916
31
0
0
LINE
5
111
100
AcDbEntity
8
0
100
AcDbLine
10
151.97322587714586
20
-131.03793987254915
30
0
11
149.22322587714584
21
-131.03793987254915
31
0
0
LINE
5
112
100
AcDbEntity
8
0
100
AcDbLine
10
149.22322587714584
20
-131.03793987254915
30
0
11
149.22322587714584
21
-111.28793987254916
31
0
0
LINE
5
113
100
AcDbEntity
8
0
100
AcDbLine
10
151.97322587714586
20
-143.67734163785343
30
0
11
151.97322587714586
21
-131.03793987254915
31
0
0
LINE
5
114
100
AcDbEntity
8
0
100
AcDbLine
10
151.97322587714584
20
-111.28793987254916
30
0
11
151.97322587714584
21
-98.677341637853445
31
0
0
LINE
5
115
100
AcDbEntity
8
0
100
AcDbLine
10
151.97322587714584
20
-98.677341637853445
30
0
11
142.08351398500963
21
-98.677341637853445
31
0
0
LINE
5
116
100
AcDbEntity
8
0
100
AcDbLine
10
121.83351417022374
20
-98.677341637853502
30
0
11
111.97322587714586
21
-98.677341637853431
31
0
0
CIRCLE
5
117
100
AcDbEntity
8
0
100
AcDbCircle
10
115.46910772921251
20
-102.61020872142851
30
0
40
1.375
0
CIRCLE
5
118
100
AcDbEntity
8
0
100
AcDbCircle
10
148.47734402507922
20
-102.61020872142848
30
0
40
1.375
0
CIRCLE
5
119
100
AcDbEntity
8
0
100
AcDbCircle
10
115.46910772921252
20
-139.7444745542785
30
0
40
1.375
0
CIRCLE
5
120
100
AcDbEntity
8
0
100
AcDbCircle
10
148.47734402507922
20
-139.74447455427844
30
0
40
1.375
0
LINE
5
121
100
AcDbEntity
8
0
100
AcDbLine
10
-89.28750469692568
20
-108.98493010727066
30
0
11
-89.28750469692568
21
-83.98493010727077
31
0
0
LINE
5
122
100
AcDbEntity
8
0
100
AcDbLine
10
111.97322587714586
20
-121.17734163785343
30
0
11
149.22322587714584
21
-121.16293987254917
31
0
0
LINE
5
123
100
AcDbEntity
8
0
100
AcDbLine
10
121.85421680086111
20
-146.91970876999417
30
0
11
142.10419976733749
21
-146.89344363306316
31
0
0
LINE
5
124
100
AcDbEntity
8
0
100
AcDbLine
10
142.10419976733749
20
-146.89344363306316
30
0
11
142.10090308646204
21
-143.65405216029893
31
0
0
LINE
5
125
100
AcDbEntity
8
0
100
AcDbLine
10
121.85090932555684
20
-143.66971045297814
30
0
11
121.85421680086111
21
-146.91970876999417
31
0
0
LINE
5
126
100
AcDbEntity
8
0
100
AcDbLine
10
111.97322587714586
20
-143.67734163785343
30
0
11
121.85091709170102
21
-143.67734163785343
31
0
0
LINE
5
127
100
AcDbEntity
8
0
100
AcDbLine
10
142.1009267878195
20
-143.67734163785343
30
0
11
151.97322587714586
21
-143.67734163785343
31
0
0
ENDSEC
0
SECTION
2
OBJECTS
0
DICTIONARY
5
C
100
AcDbDictionary
3
ACAD_GROUP
350
D
3
ACAD_MLINESTYLE
350
17
0
DICTIONARY
5
D
100
AcDbDictionary
0
DICTIONARY
5
1A
330
C
100
AcDbDictionary
0
DICTIONARY
5
17
100
AcDbDictionary
0
ENDSEC
0
EOF
